Driver

Tabbed by Dan Orth

 

Verse-x2

G Em C G

G Em C D

G Em C G

G C C G

 

Chorus

Transition

e|---------

B|---------

G|---------

D|---------

A|---3--2--

E|3--------

 

Chorus

C G C G C G Em D

C G C Em C G C D

 

Verse again

 

Also can do it like this,with the above chorus.

e|------------------------3--3----------------------------------

B|-0--------1----3--------------------1-0^3--------------------

G|------------0-----------0-------------------------------------

D|----0-------------0-----------2-----2-----0-----0-----0-----0-

A|---------------------------3-----3----------------------------

E|-3-----3-------3-----3-----------------3-----3-----3-----3----

 

 

e|-------------0----------0-------------------------------------

B|-3-----0-----------1----------0-------3-----3-----3-----3----

G|---------------------------------------2-----2-----2-----2----

D|----0-----0-----2-----2----2-----2--0-----------0-------------

A|-------------3-----3----------------------0-----------0-------

E|-3-----3----------------0-----0-------------------------------

 

e|------------------------3--3----------------------------------

B|-0--------1----3--------------------1-0^3--------------------

G|------------0-----------0-------------------------------------

D|----0-------------0-----------2-----2-----0-----0-----0-----0-

A|---------------------------3-----3----------------------------

E|-3-----3-------3-----3-----------------3-----3-----3-----3----

 

e|-------------------------------------------------------3------

B|-3---3----3----0--1-----3-----3---1-----3-----3--------------

G|--------------------------------------------------------------

D|---0--------0--------2----------2-----2-------------2---------

A|---------------0--3--------3-------3--------3----------2------

E|-3-----3-----------------------------------------------3------