Wingsuit

Phish

 

Intro

 

Steal away, let's steal a car

You'll never win a major only shooting par

 

Step outside, feel the sun

It's only you, be you, cause you're the only one

 

Chorus: 2x

D5/Dm C5

And it feels good

D5/Dm C5

Cause it feels good

D5/Dm C5

And it feels good

 

Nothing lasts, nothing stays

Caught in this procession of unchanging days

What's new is old, what's old is gone

You're pushed up to the edge so put your wingsuit on

 

[repeat Chorus 1x]

 

Bb F Dm C

And gliding away you fly where you choose

Bb F Gm

There's nothing to say and nothing to lose

 

[repeat intro]

 

[verse riff]

Steal away, paint the sky

 

D5/Dm C

Put your wingsuit on (4x)

 

Bb F D5/Dm C D5/Dm C

And gliding away you fly where you choose

Bb F Gm

There's nothing to say and nothing to lose

 

(single guitar notes)

G A Bb D E F G

G A Bb D E F

G

Time to put your winsuit on

 

Outro:

Gm Am Bb C

Gm Am Bb

 

Trey plays a Gm pentatonic solo over the outro chords

Intro (2x):

E------------------------------------------------------------------

B----11---11-----11---11-10-10------8---8s10--10-----8---8p6---6-

G------------------------------------------------------------------

D--13---13-----13---13------------8---8-----10------8---8-----7---

 

Verse:

The verse is similar to the intro but with the following fingerings:

E--------------------

B--11---10---8---10--

G--------------------

D--13---10---8---10--

 

 

B----11---11-----11---11---10---

G-------------------------------

D--13---13-----13---13---10-----

 

Steal away, let's steal a car

 

 

B----8--8--8... ------10---10-

G-----------... --------------

D--8--8--8--... ----10---10---

 

You'll never win a major only shooting par

 

Chorus: Trey only plays the D5/Dm sometimes, but it's implied