Wombat

F#

Had to have that
Had to have that
Your wombat
Had that

Had to have that
Had to have that
Your wombat
Had that

You gotta take it with you when you're going forward (Had to have that - Had to have that)
If you're moving on you've got to leave it behind

(Know you've got to leave it behind) lower pitch

You gotta take it with you when you're going forward (Had to have that - Had to have that)
If you're moving on you've got to leave it behind

(Know you've got to leave it behind) higher pitch

(ascending/descending riff: D D# E F E D# D D# D D# E D# D)
Your wombat
You had that
Your wombat
You had that

You gotta take it with you when you're going forward
If you're moving on you've got to leave it behind
(Know you've got to leave it behind) - lower pitch

C# & D#
It's kinda like the theme from the "Fish" TV show
You know - with Abe Vigoda
The "Fish" TV show
You know - with Abe Vigoda


F#
You gotta take it with you when you're going forward
(Had to have that - Had to have that)
If you're moving on you've got to leave it behind

(Bring it forward or leave it behind)


C# & D#
Little red wagon took a big jump (Cuddly but deadly)
That pup was caught in a centrifuge (Herbivorous, crepuscular)

Never did tumble over the side of the hill (Discovered by a man named Wilson)
Kept flying down to Baton Rouge


(Descending Clav Riff (^ = bend up): ^A# ^G# ^F# ^F ^C# C# C# D# C# G# C# (last C# is a lower octave than before)
Spit out the seeds
Gnaw on the pulp
Suck on the juice
C# & D#
And simmer the rinds

(Herbivorous, crepuscular)

Look at everything
You had to have
Bring it forward
C# & D#

(Bring it forward or leave it behind)
Or leave it behind

D# & C#
Cuddly, but muscular

Herbivorous, crepuscular
Cuddly, but muscular
Herbivorous, crepuscular
Cuddly, but muscular
Herbivorous, crepuscular
Cuddly, but muscular
Herbivorous, crepuscular

Bass Riff

e ----------------------------------------------------

B ----------------------------------------------------

G ----------------------------------------------------

D ----------------------------------------------------

A ---5-6-7-8---8-7-6-5-6---5-6-7-6-5------------------

E ----------------------------------------------------

 

Descending Clav Riff (^ = bend up): ^A# ^G# ^F# ^F ^C# C# C# D# C# G# C# (lower octave than before)

 

e ---18b--16b-------------------------------------------

B -------------18b--17b---------------------------------

G -----------------------18b--18-----18-20-18-----------

D --------------------------------------------18--------

A ------------------------------------------------16----

E ------------------------------------------------------