David Bowie by Phish

Origionally Tabbed by Neil Berkman

Tablature Expansion by Cleantone



B/Db Dbm7                  A    B



    H       H          S\                 H      H         S\

E-------------------------------------------------------------------------|

B-4---5----4--5---x-x-----x-2--x-4-x-x---4--5---4--5--x-x----x-2--x-x-4-x-|

G-4--(4)---4-(4)--x-x-----x-2--x-4-x-x---4-(4)--4-(4)-x-x----x-2--x-x-4-x-|

D-4---6----4--6---x-x-----x-2--x-4-x-x---4--6---4--6--x-x----x-2--x-x-4-x-|

A-4--(4)---4-(4)--x-x-----x-x--x-x-x-x---4-(4)--4-(4)-x-x----x-2--x-x-4-x-|

E----------------------9-----------------------------------9--------------|

  Da- vid  Bo-wie                        Da-vid Bo-wie          *



This is played through three times, then started a fourth time. The fourth 

time is the same untill the part marked with a "*" then itís



    B

        S\                S\    S\

E----------------------|------------------------------|

B-x-4----------4-5-6-7-|---------------------4-5-6-7--|

G-x-4--------4---------|-----2-----4-------4----------|

D-x-4------4-----------|-----2-----4-----4------------|

A-x-2--4-6-------------|-2-4---4-6---5-6--------------|

E----------------------|------------------------------|



   S\   S\                       S\    S\

E-----------------------------|-----------------------------|-------------|

B---------------------4-5-6-7-|---------------------4-5-6-7-|-------------|

G-----2-----4-------4---------|-----2-----4-------4---------|-----2-----4-|

D-----2-----4-----4-----------|-----2-----4-----4-----------|-----2-----4-|

A-2-4---4-6---5-6-------------|-2-4---4-6---5-6-------------|-2-4---4-6---|

E-----------------------------|-----------------------------|-------------|



B/Db Dbm7                  A    B



    H       H          S\                 H      H         S\

E-------------------------------------------------------------------------|

B-4---5----4--5---x-x-----x-2--x-4-x-x---4--5---4--5--x-x----x-2--x-x-4-x-|

G-4--(4)---4-(4)--x-x-----x-2--x-4-x-x---4-(4)--4-(4)-x-x----x-2--x-x-4-x-|

D-4---6----4--6---x-x-----x-2--x-4-x-x---4--6---4--6--x-x----x-2--x-x-4-x-|

A-4--(4)---4-(4)--x-x-----x-x--x-x-x-x---4-(4)--4-(4)-x-x----x-2--x-x-4-x-|

E----------------------9-----------------------------------9--------------|

  Da- vid  Bo-wie                        Da-vid Bo-wie          *



This is played through three times, then started a fourth time. The fourth 

time is the same untill the part marked with a "*" then itís



1st Interlude:



E---------------------------------7----------------|

G-----------4-7-4-------------5-7---7-5------------|

B---------6-----------4-7---6-----------6-4--------|

D-----4-7---------7-4-----7-----------------7-4----|

A---6-------------------------------------------7--|

E-7------------------------------------------------|



E---------------------------------5----------------|

G-----------2-5-2-------------3-5---5-3------------|

B---------4-----------2-5---4-----------4-2--------|

D-----2-5---------5-2-----5-----------------5-2----|

A---4-------------------------------------------5--|

E-5------------------------------------------------|



E---------------------------------3----------------|

G-----------0-3-0-------------1-3---3-1------------|

B---------2-----------0-3---2-----------2-0--------|

D-----0-3---------3-0-----3-----------------3-0----|

A---2-------------------------------------------3--|

E-3------------------------------------------------|

E----------------------------------------------13-----------------------|

G---------------10-13-10-----------------11-13----13-11-----------------|

B------------12--------------10-13----12----------------12-10-----------|

D------10-13-----------13-10-------13-------------------------13-10-----|

A----12-------------------------------------------------------------13--|

E-13--------------------------------------------------------------------|



E------------------------------------------11--------------------|

G--------------8-11-8-----------------9-11----11-9---------------|

B------------8-------------8-11----10--------------10-8----------|

D------ 8-11----------11-8------11----------------------11-8-----|

A----10------------------------------------------------------11--|

E-11-------------------------------------------------------------|



E---------------------------------9----------------|

G-----------6-9-6-------------7-9---9-7------------|

B---------8-----------6-9---8-----------8-6--------|

D-----6-9---------9-6-----9-----------------9-6----|

A---8-------------------------------------------9--|

E-9------------------------------------------------|



Here Trey rests for 2 beats while Page plays C# then A, then:



E-------------------12-------------------|

B-11----12-------13-------11-12-13-11----|

G----11----12-13-------13-------------13-|

D----------------------------------------|

A----------------------------------------|

E----------------------------------------|

                      (                 )



Neilís Notes: Play the first 6 notes with ring finger, moving it up from the 

11th to 13th fret. Also, cheat on the marked ( ) part like this:



          P

E-----------------|

G----11-13-11-----|

B-13----------13--|

D-----------------|

A-----------------|

E-----------------|



E-------------------13-------------------|

B-12----13-------14-------12-13-14-12----|

G----12----13-14-------14-------------14-|

D----------------------------------------|

A----------------------------------------|

E----------------------------------------|



E-------------------14-------------------|

B-13----14-------15-------13-14-15-13----|

G----13----14-15-------15-------------15-|

D----------------------------------------|

A----------------------------------------|

E----------------------------------------|



E-------------------15--------------------------------------------|

G-14----15-------16--------12-13-14-15--15-14-13-12--14-15-16-17--|

B----14----15-16-------16-----------------------------------------|

D-----------------------------------------------------------------|

A-----------------------------------------------------------------|

E-----------------------------------------------------------------|



E-----------------------------------------------------|

G-17-16-15-14--16-17-18-19--19-18-17-16--18-19-20-21--|

B-----------------------------------------------------|

D-----------------------------------------------------|

A-----------------------------------------------------|

E-----------------------------------------------------|

Fast Chromatic Lick:



E-20-19-18-17--19-18-17-16--18-17-16-15--17-16-15-14--16-15-14-13--|

G------------------------------------------------------------------|

B------------------------------------------------------------------|



E-15-14-13-12--14-13-12-11--13-12-11-10--12-11-10-9--11-10-9-8--|

G---------------------------------------------------------------|

B---------------------------------------------------------------|



E-10-9-8-7-----------------------------------------------|

G----------10-9-8-7--------------------------------------|

B-------------------10-9-8-7-----------------------------|

D----------------------------10-9-8-7--------------------|

A-------------------------------------10-9-8-7-----------|

E----------------------------------------------10-9-8-7--|



Not entirely sure about that last part but itís close



    H      H         S\                H      H        S\

E----------------------------------------------------------------------|

B-7--8---7--8---x-x-----x-5--x-7-x-x--7--8---7--8--x-x----x-5--x-x-7-x-|

G-7-(7)--7-(7)--x-x-----x-5--x-7-x-x--7-(7)--7-(7)-x-x----x-5--x-x-7-x-|

D-7--9---7--9---x-x-----x-5--x-7-x-x--7--9---7--9--x-x----x-5--x-x-7-x-|

A-7-(7)--7-(7)--x-x-----x-x--x-x-x-x--7-(7)--7-(7)-x-x----x-5--x-x-7-x-|

E--------------------11--------------------------------11--------------|

   UB     40                           UB     40             *



This is played through three times, then started a fourth time. The fourth 

time is the same untill the part marked with a "*" then itís:



        S\                S\    S\

E----------------------|-------------------------------|

B-x-7----------7-8-9-0-|---------------------7-8-9-10--|

G-x-7--------7---------|-----3-----7-------7-----------|

D-x-7------7-----------|-----3-----7-----7-------------|

A-x-5--7-8-------------|-5-7---7-9---8-9---------------|

E----------------------|-------------------------------|



   S\   S\                       S\    S\

E-----------------------------|-----------------------------|-------------|

B---------------------7-8-9-10|---------------------7-8-9-10|-------------|

G-----5-----7-------7---------|-----5-----7-------7---------|-----5-----7-|

D-----5-----7-----7-----------|-----5-----7-----7-----------|-----5-----7-|

A-5-7---7-9---8-9-------------|-5-7---7-9---8-9-------------|-5-7---7-9---|

E-----------------------------|-----------------------------|-------------|



2nd Interlude:

                        /S    /S                      H

E------------------------------------------10--------------------------|

G-----12-----10-----9-------------------11----11-----8--9--------------|

B---9----9------9------8--9--8--9--9-12----------12--8-(8)-8-----------|

D-9--------9------9----9-10--9-10----------------------------11-10-11--|

A----------------------------------------------------------------------|

E----------------------------------------------------------------------|



                       P            /S     /S

E-----8------------------------------------------------------------|

G-7-9---9---10---10--11-(10)--12----------------------------12-12--|

B---------8--8---10--10--10---10---9-10---9-10--10-10-13-13--------|

D-----------10---10--10--10---10--10-11--10-11---------------------|

A------------------------------------------------------------------|

E------------------------------------------------------------------|



                   A    B

   H       H                  /S     /S

E------------------5-5--7-7----------------|

G-9-(10)--9-(10)---7-7--9-9----------------|

B-9---9---9---9----7-7--9-9----------------|

D------------------7-7--9-9-------9--------|

A----------------------------9-11---11-13--|

E------------------------------------------|





                        /S     /S                    H

E------------------------------------------12---------------------------|

G-----14-----12-----11-------------------13--13----10--11---------------|

B---11--11-----11------10-11--10-11-11-14------14--10-(10)-10-----------|

D-11------11-----11----11-12--11-12---------------------------13-12-13--|

A-----------------------------------------------------------------------|

E-----------------------------------------------------------------------|



                       P           /S     /S

E-----10-----------------------------------------------------------|

G-9-11--11---12--12--13-(12)-16-----------------------------15-15--|

B---------10-10--12--12--12--12---11-12--11-12--12-12-15-15--------|

D------------12--12--12--12--12---12-13--12-13---------------------|

A------------------------------------------------------------------|

E------------------------------------------------------------------|



     H       H                   /S       /S

E-------------------7-7--9--9----------------------|

G-11-(12)--11-(12)--9-9-11-11------------------13--|

B-11--11---11--11---9-9-11-11------------------13--|

D-------------------9-9-11-11--------11--------13--|

A------------------------------11-13----13-15------|

E--------------------------------------------------|



                      /S    /S                  H

E---------------------------------------7---------------------|

G-----9-----7-----6-------------------8---8----5--6-----------|

B---6---6-----6------5--6--5--6--6--9-------9--5-(5)-5--------|

D-6-------6-----6----6--7--6--7------------------------8-7-8--|

A-------------------------------------------------------------|

E-------------------------------------------------------------|



                    P         /S    /S

E-----5------------------------------------------------|

G-4-6---6----7--7--8-(7)-9-------------------------9-9-|

B---------5--5--7--7--7--7---6--7--6--7--7-7-10-10-----|

D------------7--7--7--7--7---7--8--7--8----------------|

A------------------------------------------------------|

E------------------------------------------------------|



   H      H                 /S    /S

E----------------2-2--4-4-----------------|

G-6-(7)--6-(7)---5-5--6-6--------------9--|

B-6--6---6--6----5-5--6-6--------------9--|

D----------------5-5--6-6------6-------9--|

A--------------------------6-7---7-10--7--|

E-----------------------------------------|



                       /S    /S                  H

E----------------------------------------9-----------------------|

G-----11-----9-----8-------------------10-10----7--8-------------|

B---8----8-----8------7--8--7--8--8--11-----11--7-(7)-7----------|

D-8--------8-----8----8--9--8--9------------------------10-9-10--|

A----------------------------------------------------------------|

E----------------------------------------------------------------|



E-----7-------------|

G-6-8---8----9---9--|

B---------7--7---9--|

D------------9---9--|

A----------------7--|

E-------------------|



                      /S    /S                  H

E---------------------------------------3---------------------|

G-----5-----3-----2-------------------4---4----1--2-----------|

B---2---2-----2------1--2--1--2--2--5-------5--1-(1)-1--------|

D-2-------2-----2----2--3--2--3------------------------4-3-4--|

A-------------------------------------------------------------|

E-------------------------------------------------------------|

                     P         /S    /S

E-----1------------------------------------------------|

G-0-2---2----3--3--4-(3)-5-------------------------5-5-|

B---------1--1--3--3--3--3---2--3--2--3--3-3--6-6------|

D------------3--3--3--3--3---3--4--3--4----------------|

A------------------------------------------------------|

E------------------------------------------------------|



   H      H                /S

E--------------|-3-3--0-0--------------9------------------------|

G-2-(3)--2-(3)-|-3-3--2-2---------12-9---11-10-12-9-------------|

B-2--2---2--2--|-0-0--2-2----------------------------9-12-9-11--|

D--------------|-0-0--2-2------2--------------------------------|

A--------------|-2-2--0-0--2-3----------------------------------|

E--------------|-3-3--------------------------------------------|



E--------------------------|-----------------------------------------|

G--------------------------|-13-10-12----10----12-9----10-9----------|

B----9----11---------------|----------12----11------11------9-10-----|

D-12---11----12-9-12-11----|-------------------------------------12--|

A-----------------------12-|-----------------------------------------|

E--------------------------|-----------------------------------------|



E----------------------------------------------------------------------12-|

G--------------------------11----10-----7-8--9-10-11-12-13-14-15-16-17-12-|

B-9---------10----------------12----7---7-8--9-10-11-12-13-14-15-16-17-12-|

D---10-12-9----11-9-11-8--------------8-8-9-10-11-12-13-14-15-16-17-18-14-|

A------------------------9------------------------------------------------|

E-------------------------------------------------------------------------|



Next comes the Jam, which is pretty much Em to D. Towards the end, it starts 

alternating the Em to D part with a C to D to Em part:



C D Em Em C D Em Em  Em D Em D Em D Em D



Not sure how Phish decides when to kick into this part:



    C          D         Em          C          D         Em

   4x         4x         8x         4x         4x         8x

    P          P          P          P          P          P

E-15-12----|-17-14----|-19-15----|-15-12----|-17-14----|-19-15----|

G-------13-|-------15-|-------17-|-------13-|-------15-|-------17-|

B----------|----------|----------|----------|----------|----------|

D----------|----------|----------|----------|----------|----------|

A----------|----------|----------|----------|----------|----------|

E----------|----------|----------|----------|----------|----------|

                                                        *

This goes back and forth between this pattern and the Em to D part a few 

times, then when Trey decides to end the jam, he plays the pull off pattern 

untill the point marked *, there he plays 4 whole step bends on the 22 fret



   B   B   B   B    Em        A  B        A  B        A  B        A  B

E-22--22--22--22--|----------------|-----------|-----------|------------|

G-----------------|-----x-x-x-2--4-|--x-x-2--4-|--x-x-2--4-|--x-x-2--4--|

B-----------------|-0---x-x-x-2--4-|--x-x-2--4-|--x-x-2--4-|--x-x-2--4--|

D-----------------|-2---x-x-x-2--4-|--x-x-2--4-|--x-x-2--4-|--x-x-2--4--|

A-----------------|-2--------------|-----------|-----------|------------|

E-----------------|-0--------------|-----------|-----------|------------|

                                                                     *

E------------------|

G-4---5---4----5---|

B-4--(4)--4---(4)--|

D-4---6---4----6---|       The * on the B chord above signafies Trey

A-4--(4)--4---(4)--|      toggling him pick-up selector back and forth

E------------------|

  Da-vid  Bo- wie