Party Time

Key of Ab

Chords: Eb7 & Ab7

 

Part 1

Part 2

Part 1

Part 2

 

Eb7 Ab7 (x2)

 

Party Time! (x8)

 

Jam on Eb7 & Ab7 (be loose with the chords, donít just go between the two)

 

Party Time (x4)

 

Jam again

 

Party Time (x8)

 

End on Part 1/Intro

 

 

PART 1/Intro

e ------------------------------------------------------------

B ---------------------------------------------11h13--11h13---

G ---------------------------------------------11h11--11h11---

D ------------------------11-11---------11-11--11h13--11h13---

A ------10--13-13---10-13---------10-13-----------------------

E ---11-------------------------------------------------------

 

PART 2

††††† Eb††††††††††† Db††††††††††† Eb††††††††††† Db

e ---^15~--15^16-15-13---13h15-13-11---11h13-11-----11-13-11----

B ----16------------14------------11------------14--------------

G ----15------------13------------13----------------------------

D --------------------------------------------------------------

A --------------------------------------------------------------

E --------------------------------------------------------------

 

e ----------------------------------------------------

B ----------------------------------------------------

G ----------------------------------------------------

D ----------------------------------------------------

A ----------------------------------------------------

E ----------------------------------------------------

 

 

 

e|----------------------------------------------|

B|--8----9--8--6----8--6-------6------------6--|

G|-------------------------8-------8--6----8----|

D|----------------------------------------------|

A|----------------------------------------------|

E|----------------------------------------------|