#----------------------------------PLEASE NOTE---------------------------------#
#This file is the author's own work and represents their interpretation of the #
#song. You may only use this file for private study, scholarship, or research. #
#------------------------------------------------------------------------------#
#
Maze
by Phish
From: David Douglas McCallum <kcjonz@wam.umd.edu>
From:  Chris Temeles <casuite211@aol.com> 
From:  Emil Hedaya <tabs@redmedia.com> 
Intro:
 (Bass Sim.)
|:              :|       Trey's Harmonics (repeat)
E-------------------------------------------------
B-------------------------------------------------
G------------------------------(5)--or---(5)-(7)--
D------------------------------(5)----------------
A--------------1----------------------------------
E--3--3-3-1--3------------------------------------
    Gm7                         C9
The overhead view is of me in a maze.
                                          Gm7
And you see what I'm hunting a few steps away.
                                              C9
But I take a wrong turn, and I'm on the wrong path.
                                         Gm7
And the people all watching enjoy a good laugh.
  D                        C
Embarrassed with failure, I try to reverse
    Bb                         G#              Gm7
The course that my tread had already traversed.

[same chord progression]

So doing the trauma engulfing my dreams
Invaded through what was an unguarded seam.
The torrent of helplessness swept me away.
To the cavern of shame and the hall of dismay.
Inside me a voice was repeating the phrase:
"You've lost it. You'll never get out of this maze."

       Bb                    G
You'll never get out of this maze.     x7
           (jam)
Tabbed by Chris Temeles   casuite211@aol.com 

Starts at 5:52 on rift CD

FAST                         			           1	
E|-12h13p12p10--12h13p12p10--12h13p12p10--12h13p12p10-13^-13^----|
B|---------------------------------------------------------------|
G|---------------------------------------------------------------|(2x)
D|---------------------------------------------------------------|
A|---------------------------------------------------------------|
E|---------------------------------------------------------------|
						            1
E|-12h13p12p10--12h13p12p10--12h13p12p10--12h13p12p10--13^-13^----|
B|----------------------------------------------------------------|
G|----------------------------------------------------------------|
D|----------------------------------------------------------------|
A|----------------------------------------------------------------|
E|----------------------------------------------------------------|

E|-13--10------10---12h13p12p10---12h13p12p10---12h13p12p10----|
B|---------13--------------------------------------------------|
G|-------------------------------------------------------------|
D|-------------------------------------------------------------|
A|-------------------------------------------------------------|
E|-------------------------------------------------------------|
                    1     1        1     1     1     1
E|-12h13p12p10---13B^---13^~~~~--15^---15^---15^---15^----|
B|--------------------------------------------------------|
G|--------------------------------------------------------|
D|--------------------------------------------------------|
A|--------------------------------------------------------|
E|--------------------------------------------------------|
                 Fast and attached 
             1     1          1         1         1
E|-10--12--13^-------17---------17--------17--------17----|
B|---------------20^--------20^-------20^-------20^-------|
G|--------------------------------------------------------|
D|-This is the trick to the whole solo. Play the 17th fret-|
A|----as soon as you reach a whole step on that bend.-----|
E|--------------------------------------------------------|                                     
          
E|-19^--19^--17--------|
B|---------------20----|
G|---------------------|
D|---------------------|play this phrase(last 12 notes)3x
A|---------------------|
E|---------------------|
     1                          1    1
E|----------------------------------------------------------|
B|-20^--20--18----18--20------20^--20^--18---18-------------|
G|------------------------19---------------------19-19------|
D|----------------------------------------------------------|
A|----------------------------------------------------------|
E|----------------------------------------------------------|

     1	  1	     1	  1	               
E|------17-------17-------17-------17---19^---19^(19)--17------17----|
B|-20^------20^------20^------20^--------------------------20--------|
G|-------------------------------------------------------------------|
D|-------------------------------------------------------------------|
A|-------------------------------------------------------------------|
E|-------------------------------------------------------------------|
play this phrase 2x...faster and faster
     1          1          1         1             
E|------17---------17---------17--------17--19^--19^(19)----|
B|-20^--------20^--------20^-------20^----------------------|
G|----------------------------------------------------------|
D|------------------------FAST...---------------------------|
A|----------------------------------------------------------|
E|----------------------------------------------------------|
     1     1     1     1     1                    
E|------------------------------17---17---19---19^(19)----|
B|-18^---18^---20^---20^---20^----------------------------|
G|--------------------------------------------------------|
D|--------------------------------------------------------|
A|--------------------------------------------------------|
E|--------------------------------------------------------|
                            1     1          1
E|-19^(19)----17--19--17---20^---20^----17----------|
B|------------------------------------------20^-----|
G|--------------------------------------------------|
D|------------make these seven notes count!!--------|
A|---------especially the two bends on the high e---|
E|--------------------------------------------------|
This is that lightning fast part.  
Keep your first finger on the 17th fret and stress the two bends below
      Pretty Fast...
E|-20p17------17---20p17------17---20p17--20p17------17----|
B|--------19--------------19---------------------19--------|
G|---------------------------------------------------------|
D|---------------------------------------------------------|
A|---------------------------------------------------------|
E|---------------------------------------------------------|
                   1,    1,  
E|-20p17------17---20^~~---20^~~----|
B|--------19------------------------|
G|----------------------------------|Play this phrase
D|----------------------------------|(starting where it says pretty fast) 2x
A|----------------------------------|
E|----------------------------------|

E|-20p17---20p17------17---20p17------17---20p17--20p17------17----|
B|----------------19--------------19---------------------19--------|
G|-----------------------------------------------------------------|
D|-----------------------------------------------------------------|
A|-----------------------------------------------------------------|
E|-----------------------------------------------------------------|


                     1     1     1
E|-20p17------17---20^---20^---20^(20)---17------17-------|
B|--------19---------------------------------20-----------|
G|--------------------------------------------------------|
D|--------------------------------------------------------|
A|--------------------------------------------------------|
E|--------------------------------------------------------|
play the whole cycle again(starting where it says pretty fast!!)
or play it as many times as you want-and end on Gm7