Seven Below-Phish

Album-Round Room

Intro x3

E-|----------------------------|---------------------------------------

B-|----------------------------|---------------------------------------

G-|------------------(5)--(3)--|-----3---------------------------------

D-|-------------------5----3---|----------5--------------------3-------

A-|--------5--6--7-------------|---------------6--7--7------3-----38-

E-|----8-----------------------|---------------------------------------

 

E-|--------15------------15/17-----------------------------------------

B-|---13-------13\12/13----------13--12----13--12----------------------

G-|--------------------------------------------------12----------------

D-|--------------------------------------------------------------------

A-|--------------------------------------------------------------------

E-|--------------------------------------------------------------------

 

E-|---------12----------------13---------------------------------------

B-|-/10-----13----10\9/10------------10-----8\-------------------------

G-|-/10-----------10\9/10------------10-----9\-------------------------

D-|--------------------------------------------------------------------

A-|--------------------------------------------------------------------

E-|--------------------------------------------------------------------

 

C G

Blue, splinter and grow

F C

New Crystals of snow

F C

Seen several kinds

G C

Through seven below

 

Top Layer

 

E-|-----15---17---15------------------------

B-|-----------------------------------------

G-|-----------------------------------------

D-|-----------------------------------------

A-|-----------------------------------------

E-|-----------------------------------------

 

Try C scales for lead - flat 7th

like penatonic on the 8th fret