----------------------------------PLEASE NOTE---------------------------------#
#This file is the author's own work and represents their interpretation of the #
#song. You may only use this file for private study, scholarship, or research. #
#------------------------------------------------------------------------------#
#
Wading in the Velvet Sea

by Phish
transcribed by Dave Ginsberg davidgi@the-ark.com 

additions by Andrew Parker dresman@uconect.net

 

I've been Wading in the Velvet Sea (repeats throughout song)

Chords: G D Em C D (progression repeats though song)

Took a moment from my day

wrapped it up in things you say

mailed it off to your address

you will get it soon, unless

the packaging begins to break

and all the points I try to make

tossed my thoughts into a pool 

my time leaks out, my life leaks in

You wonít find moments in a box

and someone else will set your clocks

took a moment from my day

and wrapped it up in things you say

And mailed it off to you...

From SOTG:

Additions (Andrew Parker dresman@uconect.net):

The minor part after "...off to you"

Bm -> C (Cadd9)

Bm -> C (Cadd9)

Bm -> C

D

You wonít find moments in a box

C/A (x02010)

And someone else will set your clocks

C D G

I took a moment from my day

Then back to the G D Em C D

Iíve been Wading in a Velvet Sea

--------------------------------------------------------------------------------------------------------------------------------------------------------------------------

Hereís the main part to solo too. Hampton comes alive and good to jam acoustic.

Tabbed by James Terrasi. Iíve gotten many requests for it so here it is! Please

Post it on your website and please give me props! Thanx.

 

††††††††††††

 

 

 

 

 

††††††††††††††††† Took a Mo††††† ment frommy††††††† day†††††† wrapped it up††† in things††††††† you††††††† say

e--------15-15-15---------------15-----14------14-14-14-----------------14------12

B----------------------15--15------------------------------------15-15-----------------

G------------------------------------------------------------------------------------------

D-----------------------------------------------------------------------------------------

A-----------------------------------------------------------------------------------------

E-----------------------------------------------------------------------------------------

 

 

††††††††††† Mailed it off†††††††† to your††††† add†††† ressyoull get it†††††††††† pretty soon un††††††† less (repeat)

e--------12-12-12----------------12----10--10-10--10------14-14-14-14>15----

B-----------------------13--13----------------------------------------------------------

G------------------------------------------------------------------------------------------

D-----------------------------------------------------------------------------------------

A-----------------------------------------------------------------------------------------

E-----------------------------------------------------------------------------------------

 

 

Then this part:

 

††††††††† Iíve been wading in the vel††††† vetsea†††††††††††† Iíve been wading in the vel†††† vet sea

e-----15-15-15-15-15-15-15-------------------14-14-14-14-14-14-14-----------

B-----------------------------------15-15---------------------------------------15-15-

G------------------------------------------------------------------------------------------

D-----------------------------------------------------------------------------------------

A-----------------------------------------------------------------------------------------

E-----------------------------------------------------------------------------------------

 

 

†††††††† Iíve been wading in the vel†††††† vetsea††††††† Iíve been wading in the†† Iíve been wading in the(repeat)

e----12-12-12-12-12-12-12-----------------10-10-10-10-10-10-----14-14-14-14-14-14->15

B-----------------------------------13-13---------------------------------------------------------

G------------------------------------------------------------------------------------------------

D----------------------------------------------------------------------------------------------

A------------------------------------------------------------------------------------------------

E------------------------------------------------------------------------------------------------