Spock's Brain

Phish

 

Am7C > D > C

You can't lie†††††††††††††††††††††††††††††††† (Trey strums high Am7)

You can't lie to yourself, very long

You can't lie

You can't lie to yourself, very long

 

Chorus:

††† EF#GF†††††††††††††††††††††††††††† D†††† AC G††† D A C G

The plaaaaaaaane, you didn't pay me for the plane on time

The plaaaaaaaane, you didn't pay me for the plane on time

 

Am7C > D > C

You can't hide††††††††††††††††††††††††††††††† (Trey strums high Am7)

You can't hide from yourself, not at all

You can't hide

You can't hide from yourself, not at all

 

The plane, you didn't pay me for the plane on time

The plane, you didn't pay me for the plane on time

 

††††† B

Fish: I donít know how Iíll die, but it wonít be money

 

††† EF#GF†† x3

The plaaaaaaane...

 

Bridge: D A C G†† D A C G E

 

D     A  C  GE

Plane on time!

 

Mike sings these lines over these arpeggios: E F# G F

 

I was standing on the runway

I was running to the standby

Never understand why I stood by the standby waiting for the standby

 

Standing on the runway    Trey/Page: He was askin' for it anyway

I was running to the standby

Never understand why I stood by the standby waiting for the standby

 

You can't hide

You can't lie

          Abaug

You can't lie----------------ie

You can't hide

 

Treyís part (same as intro): Am7C > D > C

 

Go ahead and drive me

Give me a ticket to fly me

No one said to cover me with tarter

Go outside...and visit the ground

Imagine a bed to smash in the mouth (STOP)

About to smash in the mouth

 

Chorus:

††† EF#GF†††††††††††††††††††††††††††† D†††† AC G †††D A C G

The plaaaaaaaane, you didn't pay me for the plane on time

††† EF#GF†††††††††††††††††††††††††††† D†††† AC G††† F E G F# F

The plaaaaaaaane, you didn't pay me for the plane on time†† ---iiiiime

G

Oooooohhhh

 

 

   Am7   D    Abaug

E---5------x-------4---

B---5------7-------5---

G---5------7-------5---

D---5------7-------6---

A---X------X-------X---

E---5------x-------X---

 

E---------------------------------------------15---17--16--15---

B------------------------------------------15-------------------

G-7-5-------------9--8------------------16----------------------

D-----7--------10------9-------------17-------------------------

A-------8----11----------10-------------------------------------

E-------------------------------5-------------------------------

 

 

E-----------------------------------------------------------

B--18--17--16--15---------------------10/\/\/\/\/\/\----------

G-------------------------------------------------------

D--------------------------------9--7------------------

A----------------------------10----------------------------

E------------------7--9--11-----------------------------------

 

 

E--------------------12---9--------------------------------------

B----------------10----------12-12---12-12---12-12---12-12------

G-10--9--10--12-------------------------------------------

D----------------------------------------------------

A---------------------------------------------------

E--------------------------------------------------

 

D     A  C  GE

Plane on time!

 

E------------------------------------------

B-----9-------11--------12-------10---------

G---9------11--------12-------10-----------

D-9-----11--------12-------10----------------

A-------------------------------------------

E-------------------------------------------