Suskind Hotel

Mike Gordon

Key of E

 

(main riff x2)

 

B

Up in the hills, at the bend of the road

A†††††††††††††††††††††††††††††††† ††B

An ancient castle shines through in gold

†††††† B††††††††††††††††††††††

Itís a secret no one knows, but the locals that come to stay

A††††††††††††††††††††††††††††††††††† ††††††††††††B

The guests arenít real just souls of the Suskind place

 

Chorus:

A††††††††† ††††††††††††††††††††††††††††B

Around the hairpin curve comes souls to stay

†††††† A††††††††††††††††††††††† B††

At the hidden nestled Suskind Hotel

††† A†††††††††††††††††††††††††††††††††††† †††B††

The views from the topíthat hill are worth the pain

††††††† A††††††††††††††††††††††††††††††††† B

You can see your past and future clear and well

†††††††††††††††† B

At the Suskind Hotel

 

 

(drum fill)

 

(main riff x2)

 

 

B

I went to a house for a party on the lawn

††††† A††††††††††††††††††††††††††††† B

And I drifted in the woods and I was gone

B

With the bend of the path to a road I knew not well

A††††††††††††††††††††††††††† B

I chanced upon the Suskind Hotel

 

Chorus:

A††††††††††††††††††††††††††††††† B

On the beaten path come souls to stay

†††††† A††††††††††††††††††††††† B

At the hidden nestled Suskind Hotel

††† A††††††††††††††††††††††††††††††††††††††† B††

The views from the topíthat hill are worth the pain

††††††† A††††††††††††††††††††††††††††††††† B

You can see your past and future clear and well

†††††††††††††† B

At the Suskind Hotel

 

(drum fill x2)

 

(pre-jam riff)

 

 

Big Funk Jam in B?

 

 

(main riff)

 

(pre-jam riff)

 

 

Suskind Hotel = notes

 

Main Riff

†††† Bm

E --------------------------------------------

B --------------------------------------------

G -------------8-7------------------8-7-------

D -------9-9-------9-9--------9-9-------9-9---

A ---7^9-----9------------7^9-----9-----------

E --------------------------------------------

 

†††† Am†††††††††††††††††† Bm

E --------------------------------------------

B --------------------------------------------

G -------------6-5------------------8-7-------

D -------7-7-------7-7--------9-9-------9-9---

A ---5^7-----7------------7^9-----9-----------

E --------------------------------------------

 

 

Pre-Jam Riff

†††† Bm††††††††††††††† F#7+9†††††††††††††††† F#7+9

E ---------------------------††††††††††††† --------

B ----------------------10--- †††††††††††††---10---

G ----------------------9----x4then††† ---9---- x4

D -------9-9---9-9---9--8----††††††††††††† ---8----

A ---7^9-----9-----9----9----††††††††††††† ---9----

E ---------------------------††††††††††††† --------

 

 

E ------------------------------------------------

B ------------------------------------------------

G ------------------------------------------------

D ------------------------------------------------

A ------------------------------------------------

E ------------------------------------------------

 

E ------------------------------------------------

B ------------------------------------------------

G ------------------------------------------------

D ------------------------------------------------

A ------------------------------------------------

E ------------------------------------------------