#----------------------------------PLEASE NOTE---------------------------------#
#This file is the author's own work and represents their interpretation of the #
#song. You may only use this file for private study, scholarship, or research. #
#------------------------------------------------------------------------------#
#
Buried Alive
By Phish
Tabbed by Chris Temeles <casuite211@aol.com>
Intro I:
e|-----15-------14------13----|----15------14-----13---------|
B|----------------------------|------------------------------|
G|-12------11------10---------|-12-----11------10------------|
D|----------------------------|------------------------------|
A|----------------------------|------------------------------|
E|----------------------------|------------------------------|
This is and Octave. Use 1st finger + pinky. You can either hold 
the shape down, or fret one at a time. Trey fret one at a time.
e|-13-14-15----13-14-15----11---------|
B|-----------------------------13-11~~|
G|------------------------------------|
D|------------------------------------|
A|------------------------------------|
E|------------------------------------|

Intro II:
e|-----15-----14-----13----|-----15-----14-----13----|
B|-------------------------|-------------------------|
G|-10-----10-----10--------|-10-----10-----10--------|
D|-------------------------|-------------------------|
A|-------------------------|-------------------------|
E|-------------------------|-------------------------|

e|-13-14-15----13-14-15----11h12---------|
B|--------------------------------13-11~~|
G|---------------------------------------|
D|---------------------------------------|
A|---------------------------------------|
E|---------------------------------------|

Solo(from 12/28/90):    1\2step
e|--------------------------------------------|
B|--------------------------------------------|
G|-15(feedback)-14^(14)----12-14-12-----------|
D|-----------------------------------13-------|
A|--------------------------------------15----|
E|--------------------------------------------|

e|-----------------------------------|
B|-----------------------------------|
G|-----------------------------14----|
D|-13~~-12-13-14-13-12-13-14---------|
A|-----------------------------------|
E|-----------------------------------|

e|--------------------------------------|
B|--------------------------------------|
G|-----15-------------------------------|
D|-13--------------15/17--13--12~~~~----|
A|---------13~~~------------------------|
E|--------------------------------------|
                   1/2step
e|----------------------------------------|
B|-----13-----13--------------------------|
G|-14-----14-----14^(14)--12--14--12------|
D|----------------------------------13----|
A|----------------------------------------|
E|----------------------------------------|

e|----------------------------|------------------|
B|------------------13--15----|-13--15--15/17----|
G|------------12--14----------|------------------|
D|-10--12/14------------------|------------------|
A|----------------------------|------------------|
E|----------------------------|------------------|
                               1step
e|-------------------------|----------------|
B|-16--15--13--------------|-20^(20)--18----|
G|-------------12h14-------|----------------|
D|-------------------15----|----------------|
A|-------------------------|----------------|
E|-------------------------|----------------|

e|---------------------------|---------------------------|
B|---------------------------|---------------------------|
G|-19--18--17----------------|-----------------17--------|
D|-------------19--18--17----|-15--17---17/15------19----|
A|---------------------------|---------------------------|
E|---------------------------|---------------------------|

e|---------------------------------------|
B|---------------------------------------|
G|---------------------------------------|
D|-20p19p17--19--17--19--17--------------|
A|---------------------------18--15~~----|
E|---------------------------------------|

e|------------------------------------------|
B|------------------------------------------|
G|------------------------------------------|
D|-14--15--17---17-17-17---15---15-15-15----|
A|------------------------------------------|
E|------------------------------------------|

e|-----------------------------|
B|-----------------------------|
G|-----------------------------|
D|-13--12----------------------|
A|---------15---13-12-11-10----|
E|-----------------------------|
                           1step   1step
e|-18/20--20--18/20--20------20-----------------|
B|-----------------------22^-----22^--22--20----|
G|----------------------------------------------|
D|----------------------------------------------|
A|----------------------------------------------|
E|----------------------------------------------|
If you don't have 22 frets, then play that note on 17th fret of high e
     1step                    1step
e|-----------------------------------------|
B|-22^(22)--20--22--20--22--22^--22--20----|
G|-----------------------------------------|
D|-----------------------------------------|
A|-----------------------------------------|
E|-----------------------------------------|
     1step
e|------------------------------------------------|
B|-22^(22)--20--22--20--22--20--------------------|
G|------------------------------20--20--21--------|
D|------------------------------------------22----|
A|------------------------------------------------|
E|------------------------------------------------|
                       1step
e|--------13---------15^---15--13--15--13----|
B|-------------------------------------------|
G|-13/14------13/14--------------------------|
D|-------------------------------------------|
A|-------------------------------------------|
E|-------------------------------------------|
                                         
e|-----------------------|------------------------|
B|-15--13----------------|-13---------------------|
G|---------13--14--------|-----14--14^--14^(14)---|
D|-----------------15----|------------------------|
A|-----------------------|------------------------|
E|-----------------------|------------------------|

e|---------------------------|
B|---------------------------|
G|-12--14--12----------------|
D|-------------13--14--------|
A|---------------------15----|
E|---------------------------|

e|---------------------------------|
B|-----12------11------10-----8----|
G|---------------------------------|
D|-12------11------10------9-------|
A|---------------------------------|
E|---------------------------------|

e|------10-----6-8~~~----|
B|-----------------------|
G|-/10------9------------|
D|-----------------------|
A|-----------------------|
E|-----------------------|

Back to Intro (2x)
e|-----17------17----------------------------|
B|-16------16------16--15--14--13------13----|
G|---------------------------------14--------|
D|-------------------------------------------|
A|-------------------------------------------|
E|-------------------------------------------|

e|-15--14--13---13--14--15----------------------|
B|--------------------------16p13---------13----|
G|---------------------------------12/14--------|
D|----------------------------------------------|
A|----------------------------------------------|
E|----------------------------------------------|

e|---------------------10-----------------------------|
B|-----11------------------10->pick-every-note->19----|
G|-12------10--12--10---------------------------------|
D|----------------------------------------------------|
A|----------------------------------------------------|
E|----------------------------------------------------|

e|-15->pick-every-note->22---22/----|
B|----------------------------------|
G|----------------------------------|
D|----------------------------------|
A|----------------------------------|
E|----------------------------------|
Play intro 2 times and end on..
   G7#9
e|-----
B|-11--
G|-10--
D|--9--
A|-10--
E|-----