Low

Trey Anastasio

Transcribed by Saint
From 11/16/05 show @ The Orpheum in Boston, MA
Please send all questions, comments, quibbles, corrections or complaints to: shakedown_04092@yahoo.com

 

If Iím not tabbing this right, can someone fix it?  This should at least get you started.

Main/intro lick: (with lots of muted notes)

 

E ------------------------------------

B ------------------------------------

G ------------------------------------

D ---14---12---11-12-11-------------

A ----------------------12----------

E ------------------------12^^^3*---


*The last slide from the E on the 12th fret is very important in the song.  Not sure if he actually slides to a G or not; just slide down to what you feel is correct here.  From what I saw at the 12/28/06 Boston show, Trey actually holds these chords and plays the riff:

 

     Em   Dm    ??  Dm

E --------------------------------------

B --------------------------------------

G ---12---10----10-ó10--10--------------

D ---14---12----11--12--11--------------

A ---14---12----12--12--12--12----------

E ---12---10----10--10--10----12^^^3*---

 

 

Next comes a D7sus4 & D7 with a lick sort of like the one above

(added A), but with a different timing/strum pattern:

 

 D7sus4  D7  

E ---10--10----10-10--10----10--10----10-10-10-10-10-----

B ---10--10----10-10--10----10--10----10-10-10-10-10-----

G ---12--11----12-12--11----12--11----11-12-14-12-11-----

D ---10--10----10-10--10----10--10----10-10-10-10-10-----  2x

A ---12--12----12-12--12----12--12----12-12-12-12-12-----

E ---10--10----10-10--10----10--10----10-10-10-10-10-----

 

 

Then the A7sus4 & A7 part, same kind of feel as above.

 

E ---12--12----12-12--12----12--12----12-12-12-12-12-----

B ---15--14----15-15--14----15--14----14-15-17-15-14-----

G ---12--12----12-12--12----12--12----12-12-12-12-12-----

D ---14--14----14-14--14----14--14----14-14-14-14-14----- x2

A ---12--12----12-12--12----12--12----12-12-12-12-12-----

E -------------------------------------------------------

 

 

 

Low

Trey Anastasio

 

Main riff

Low...put a place inside (aside?)

Where you can go...away

Cause when you know

Thereís a place inside

Where you can go...away

 

Low...

Low...

 

D7sus4 & D7

LOW!

Donít stop below...low

LOW!

Donít stop below...low


A7sus4 & A7

Low

Low

 

 

(repeat entire piece again)

 


D & A jam (4 bars of each, D & A Major Pentatonic)

 

 

Main riff

Low...put a place inside (aside?)

Where you can go...away

Cause when you know

Thereís a place inside

Where you can go...away

 

Low...(x2)

 

D7sus4/D7

LOW!

Donít stop below...low

LOW!

Donít stop below...low

 

 

End jam (Am pentatonic)

 

Am C  Am C  Am   G > Am Am