DRAGONFLY
By Trey Anastasio
transcribed by Saint
from 7/3/06 Hartford, CT (GRAB show)
please send questions, comments, quibbles, complaints 
or corrections to: shakedown_04092@yahoo.com
 
Intro
 
E ------------------------------------------7-9-11-12~----
B --------------------------------------7-9---------------
G --------------3-4p3h4p3-4-6^8p6-8p6-8-------------------
D -----4p3h4-6--------------------------------------------
A ---4----------------------------------------------------
E --------------------------------------------------------
 
Boots and your dragonfly!
 
 
Main Riff (3x): C# C#7sus4 > C#7 > C#7sus4 > C#7 E E F# F# F# 
 
Turnaround: D D E E E 
 
Walk-up: A A# B
 
When your dreams all gone (boots and your dragonfly)
My feet on the ground (boots and your dragonfly)
Why not aim up into the sky
And your beats all right and your boots and your dragonfly
 
Dance all night (boots and your dragonfly)
Spin all around (boots and your dragonfly)
Im just lookin for some (boots and your dragonfly) peace of mind 
And it feels all right with your boots and your dragonfly
 
 
Breakdown Riff:
 
E -------------------------------------------12-9-------------------
B ------------------------------------------------12-9--------------
G -----------------------------------------7------------------------
D ------------------9------------------7-9-------------------------- 
A ---------7---------9----------7-9-11------------------------------
E ---9p7h9-----9p7h9------9p7h9-------------------------------------
 
E -------------------------------------------12-9-------------------
B ------------------------------------------------12-9---10-11-12---
G -----------------------------------------7------------------------
D ------------------9------------------7-9-------------------------- 
A ---------7---------9----------7-9-11------------------------------
E ---9p7h9-----9p7h9------9p7h9-------------------------------------
 
 
When your dreams all wrong (boots and your dragonfly)
I know you can fly (boots and your dragonfly)
Why not aim (boots and your dragonfly) up into the sky
Cause it feels all right with your boots and your dragonfly
 
Dont sit home (boots and your dragonfly)
Get out of line (boots and your dragonfly)
Spin all around and (boots and your dragonfly) youll be fine
Cause it feels all right with your boots and your dragonfly
 
 
Instrumental through 2 Verses
 
 
Section II (repeat 2x)
 
SN: C# (keys)
 
Boots & your dragonfly (boots and your dragonfly) x3
 
 
Walk-up: Bb B C C#
 
 
End breakdown:
 
Repeat this part 2x:
 
C# C B Bb
C# D# F#
Walk-up: Bb B C C#
 
then...
 
C# C B Bb (hang & build up on the Bb)
 
Walk-up: Bb B C C#
 
then...
 
C# C B Bb
C# D# F# (hang & build up on the F#)
 
 
 
 
 C# C#7sus4 C#7 C#7sus4 C#7
E ----9-------9---------9------------9---------9-------
B ----9-------9---------9------------9---------9-------
G ---10------11-pull--10--hammer---11-pull--10-------
D ---11-------9---------9------------9---------9-------
A ---11------11--------11-----------11--------11-------
E ----9-------9---------9------------9---------9-------